Harmony Central Forums
Announcement
Collapse
No announcement yet.

Holdsworth's 'Non Brewed Condiment'

Collapse



X
  • Time
  • Show
Clear All
new posts

  • Holdsworth's 'Non Brewed Condiment'

    Does anyone have a tab for the intro to Allan Holdsworth's 'Non Brewed Condiment' tune from the ATAVATACHRON album? I've scoured the Internet and have come up dry. I'd really love to learn this but it is way beyond the capabilities of my naked ear alone to transcribe.

  • #2
    ------------------------------------22--20--------------------
    ------------------------20----18h20---------18-----------------
    ------------17-------19----19------------------17--------------
    ---------17----17h19------------------------------1715/17-----
    -15-/-17-------------------------------------------------------
    ---------------------------------------------------------------


    ----20---------------------------------------------------------------
    -20----20-------------------18---22-18-20----------------------------
    ----------17------------------------------19-22-19-17----19----17----
    -------------17----------17---------------------------20----20----17-
    ----------------20p19h20---------------------------------------------
    ---------------------------------------------------------------------


    -------------------------------------------------------------------------
    -------------------------------15-18p15----------------------------------
    -15----------------------15h17----------17p15----------------------------
    ----15-------------15h17----------------------17p15----------------------
    -------17-1513-------------------------------------17p1513-------------
    -------------------------------------------------------------15p1310h13-



    -----------------------------------------------------------
    -----------------------------------------------------------
    -------------10h12/14-------------14---p12p10--------------
    -------10h12---------------12-------------------12---12----
    -10h13-----------------------------------------------------
    -----------------------------------------------------------




    Surprisingly, it's just Dm pentatonic for a bit, and then Gm pentatonic for a bit... Now I'm going to have to go figure out those cool out licks later on in the solo.
    www.poparad.com

    Comment


    • #3
      Poparad--able to tab wicked lines at a moment's notice!

      Choice. So frickin' cool!!!

      Comment


      • #4
        Jeremy,

        Thank you very much. That is one of the (pronounced thee) most impressive tabs I have ever seen. I've been searching for something that would give me a glimpse of that tune for a while now. Once again, thanks.

        Bill

        Comment


        • #5
          Jeremy,

          Thank you very much. That is one of the (pronounced thee) most impressive tabs I have ever seen. I've been searching for something that would give me a glimpse of that tune for a while now. Once again, thanks.

          Bill



          It's a cool song (haven't listened to that album in a while), and what actually motivated me to tab that is that the rest of the song is pretty cool, and I plan on figuring it out for my own edification. There may be a few mistakes in the tab above, but I know he's playing the Dm pentatonic scale up until the end of the second line of tab, where he switches to Gm pentatonic scale. I slowed down the line about 30% and I'm pretty sure I have it, but I can't be 100% certain.
          www.poparad.com

          Comment


          • rky
            rky commented
            Editing a comment

            i think if you play it like its tabbed out with sweeps its very very difficult to play the head. allan plays 4 notes per string, this fingering makes much more sense i think: nbctab.png

             

            allan probably plays 22-17-15-17 on the D string but that kind of string skipping is impossible for normal humans

            Attached Files












        Working...
        X